Расписание работы кружков дополнительного образования в гбоу сош №609 на 20012-2013 учебный год



Скачать 79.61 Kb.
НазваниеРасписание работы кружков дополнительного образования в гбоу сош №609 на 20012-2013 учебный год
Дата14.04.2013
Размер79.61 Kb.
ТипРасписание
источник

Утверждаю

Директор ГБОУ СОШ № 609

____________Шкутова С.В.

«01» сентября 2012 год

Расписание работы кружков дополнительного образования

В ГБОУ СОШ № 609 на 20012-2013 учебный год.



кружок

день недели

время

место проведения

педагог

организация

1

Аниматоры

вторник

(индивидуальные занятия)

четверг

(индивидуальные занятия)


16-30-------18-30

18-40--------19-40


16-30-------18-30

18-40--------19-40


каб 301

Шибаева Ирина Викторовна

ДЮЦ «Ведогонь»

2

Школа молодого артиста

вторник

четверг


14-30--------16-30

14-30--------16-30

каб 301

Шибаева Ирина Викторовна

ДЮЦ «Ведогонь»

3

Гитара



понедельник

(индивидуальные занятия)


среда

(индивидуальные занятия)


14-30------15-30

15-30------16-30

16-40------17-40

17-40------18-40

18-50-------19-50


14-30------15-30

15-30------16-30

16-40------17-40

17-40------18-40

18-50-------19-50


каб 320


каб 320

Эсенов Батыр Аманович

ДЮЦ «Союз»

4

Оригами

понедельник


четверг



14-30------15-30

15-40------16-40


14-30------15-30

15-40------16-40

каб 205


каб 205

Акопян Кира Анатольевна

ДЮЦ «Ведогонь»

5

Основы изобразительного и декоративно-прикладного творчества


понедельник


среда




14-30----15-30

15-40----16-40


14-30----15-30

15-40----16-40


каб 107


каб 107

Романова Наталья Алексеевна

ДЮЦ «Орленок»

6

Хореографическое объединение «Вдохновение»

(народные, современные, классические танцы)



понедельник


среда


пятница


суббота

14-30------15-30

15-50 ------17-50

18-00------ 20-00


15-50------ 17-50

18-00------ 20-10


14-30------15-30

15-50------ 17-50

18-00------ 20-00


10-00----- 12-00

12-10----- 14-10

каб 212

актовый зал

актовый зал

актовый зал

актовый зал

каб 212

актовый зал

актовый зал

актовый зал

актовый зал

Набатова Елена Александровна

ДЮЦ «Союз»

7

Хореографическое объединение «Вдохновение»

(народные, современные, классические танцы)

понедельник


пятница



14-30----15-30

16-00---- 18-00


14-30----15-30

16-00---- 18-00


рекреация

рекреация


рекреация

рекреация

Набатова Ольга Николаевна

ДЮЦ «Союз»

8

Бальные спортивные танцы «Юнона»

понедельник

вторник


среда


четверг


пятница



14-30----15-10

15-15----15-55

16-00-17-00

17-05-18-05


14-30----15-10

15-15----15-55


16-00-17-00

17-05-18-05


14-30----15-10

15-15----15-55


актовый зал

Могилко Игорь Владимирович

ДЮЦ «Орленок»

9

Судомоделирование



вторник


четверг


16-50---17-50

18-00----19-00


16-50---17-50

18-00----19-00


каб 121


каб 121

Николаев Дмитрий Викторович

ДЮЦ «Орленок»

10

Вокально-хоровая студия

понедельник

(академическое сольное пение)


вторник

(младший хор)

(старший хор)

(академическое сольное пение)


среда

(академическое сольное пение)


четверг

(младший хор)

(старший хор)

(академическое сольное пение)


суббота

(академическое сольное пение)



14-30------15-30

15-40------16-40

16-50------17-50

18-00------19-00

19-10-------20-10


14-30----15-30

15-40----16-40

16-45------17-15

17-15------17-45

17-45-----18-15

18-15----18-45

18-45-----19-15

19-15---19-45

19-45----20-15

20-15----20-45


14-30----15-00

15-00----15-30

15-30------16-00

16-00------16-30

16-30-----17-00

17-00----17-30

17-30-----18-00

18-00---18-30

18-30----19-00

19-00----19-30

19-30---20-00

20-00----20-30


14-30----15-30

15-40----16-40

16-45----17-15

17-15----17-45

17-45----18-15

18-15----18-45

18-45----19-15

19-15---19-45

19-45----20-15

20-15----20-45


10-00-----10-30

10-30----11-00

11-00----11-30

11-30------12-00

12-00-----12-30

12-30-----13-00

13-00---13-30

13-30---14-00

14-00---14-30

14-30---15-00

15-00---15-30

15-30---16-00


читальный зал

хормейстер:

Дремова Елена Александровна

аккомпаниатор:

Татьяна Львовна

ДЮЦ «Орленок»

11

Футбол



среда


пятница


суббота


понедельник

среда

14-30-16-30


16-10-18-10

18-20-20-20


9-50-11-50

12-00-14-00


18-10—20-10

18-10--2010

спортзал.


спортзал

спортзал


спортзал

спортзал


спортзал

спортзал


Оськин Владимир Алексеевич


Оськин Владимир Алексеевич


Оськин Владимир Алексеевич


Хлебников Анатолий Анатольевич



ДООЦ «Зеленоградец»


^ СДЮСШОР №111

12

Волейбол

вторник


четверг


суббота

16-00-18-00

18-10-20-10


16-00-18-00

18-10-20-10


10-00-12-00

12-10-14-10

спортзал

спортзал


спортзал

спортзал


спортзал

спортзал


Кучинскас Александр Игнасович

ДООЦ «Зеленоградец»

13

Баскетбол

понедельник


вторник


среда


четверг


пятница



16-00-18-00

18-10-20-10


18-10-20-10


14-30-16-00

18-20-20-20


18-20-20-20


14-30-16-00

16-00-18-00

спортзал

спортзал


спортзал


спортзал

спортзал


спортзал


спортзал

спортзал


Кучинскас А. И.

Свиридов С.В.


Свиридов С.В.


ИвановаЛ.Ю.

Свиридов С.В.


Свиридов С.В.


Иванова Л.Ю.

Кучинскас А.И.

ДООЦ «Зеленоградец»

14

Легкая атлетика

понедельник


вторник


четверг


14-30---16-30

16-40----18-00


14-30---16-30

16-40----18-00


14-30---16-30

16-40----18-00

спортзал

спортзал


спортзал

спортзал


спортзал

спортзал


Францева Н.В.


Францева Н.В.


Францева Н.В.

ДООЦ «Зеленоградец»

15

Регби

среда

пятница


16-10-18-10

18-10-20-10


спортзал

спортзал

Вельмушкин Сергей Дорофеевич

СДЮСШ олимпийского резерва № 111

Добавить документ в свой блог или на сайт


Похожие:



Если Вам понравился наш сайт, Вы можеть разместить кнопку на своём сайте или блоге:
refdt.ru


©refdt.ru 2000-2013
условием копирования является указание активной ссылки
обратиться к администрации
refdt.ru